Дурная башка

C                 E
  Солнцезащитные очки
                           F
  А вместо глаз - одни зрачки
                     G
  За нахождение в крови
        G   F        C
  "От ноля   до    пяти"
  Рубашка с длинным рукавом
  Один прозвон - опять облом
  Подальше спрячся от мечты
  Вместо "грамма" - ноль-три
  Припев
                Am
      Дурная башка
   F         G        E
      Ногам покоя не даёт
      Сегодня, вчера
      И завтра - целый скучный год

      Больная среда
      До добра не доведёт
      Случится беда
      И вряд ли кто-нибудь поймёт

бас-соло:
1|------------------------------------------------
2|------------------------------------------------
3|------------------------------------------------
4|-------------------3-2-0------------------------
5|---2-3---2-3-0-2-3---------2-3---2-3-0-2-3-2-0--
6|-1-----1-----------------1-----1---------------3

1|------------------------------------------------
2|------------------------------------------------
3|------------------------------------------------
4|-------------------3-2-0------------------------
5|---2-3---2-3-0-2-3---------2-3---2-3------------
6|-1-----1-----------------1-----1----------------

      Дурная башка                   
      Ногам покоя не даёт            
      Сегодня, вчера                 
      И завтра - целый скучный год   
                                     
      Больная среда                  
      До добра не доведёт            
      Случится беда                  
      И вряд ли кто-нибудь поймёт    




Яндекс.Каталог

© 2002–2017 gitarka.com