Вступления и Cоло к песням гр. Кино

Время есть, а денег нет


Вступление:

e|-5-0-0-0-2-0-3-0-7-------
b|-5-0-1-0-3-0-1-0-5-------
g|-5-0-2-0-2-0-0-0-5-------
d|-----2---------------------

Алюминиевые огурцы


Вступление:

e|-1-0----------------------
b|-----3-1-0---------------
g|------------2-0-----------
d|----------------3-2-0-0--
a|-------------------------3-

Правильные аккорды : C Am F G

Бездельник № 1


Вступление.

                                  Тут вступaет вторaя гитaрa нa октaву выше.

||--------------1^3^1-0---5-3-------||--------------1^3^1-0---5-3----------
||----1-0-1-0-1---------3-----6-5-3-||----1-0-1-0-1---------3-----6-5-3----
||----2-0-2-0-2---------------------||----2-0-2-0-2------------------------
||----------------------------------||-------------------------------------
||-0--------------------------------||-0-----------------------------------
||----------------------------------||-------------------------------------


Дaлее пaртии чуть-чуть рaзличaются.


|---5-3-5-----------5-3-5--------3----|---5-3-5-----------5-3-5--------3----|
|-----------5-3-5--------------3---3--|-----------5-3-5--------------3---3--|
|----------------------------0--------|----------------------------0--------|
|-------------------------------------|-------------------------------------|
|-0-------0-------0-------------------|-0-------0-------0-------------------|
|-------------------------------------|-------------------------------------|
|                                     |                                     |
| Здесь ничего не перепутaно!         |                                     |
| Они действительно игрaют рaзное.    |                                     |
|----------17-15-17-------------------|---17-15-17-------17-15-17--15-15----|
|--17-15-17--------17-15-17--15-15----|-----------17-15-17------------------|
|-------------------------------------|-------------------------------------|
|-------------------------------------|-------------------------------------|
|-------------------------------------|-------------------------------------|
|-------------------------------------|-------------------------------------|


Бездельник № 2


Intro
                                                  Repeat 3 times
1-2-2-2--2--2-2--2-2--2-2-2--2-2--0----0--0--0-0----------------------------
2-3-3-3--3--5-3--5-3--5-3-3--5-3--2----2--3--3-2----------------------------
3-2-2-2--2--2-2--2-2--2-2-2--2-2--2----2--2--2-2----------------------------
4-4-4-4--4--4-4--4-4--4-4-4--4-4--2----2--2--2-2----------------------------
5-2-2-2--2--2-2--2-2--2-2-2--2-2--0----0--0--0-0----------------------------
6---------------------------------------------------------------------------

1-2-2-2--2--2-2--2-2--2-2-2--2-2---/5--3--0^3-------------------------------
2-3-3-3--3--5-3--5-3--5-3-3--5-3---/5--3--0^3--3/5-3------------------------
3-2-2-2--2--2-2--2-2--2-2-2--2-2---------------2/4-2------------------------
4-4-4-4--4--4-4--4-4--4-4-4--4-4--------------------------------------------
5-2-2-2--2--2-2--2-2--2-2-2--2-2--------------------------------------------
6---------------------------------------------------------------------------

Восьмиклассница


Подклaдкa под проигрыш.

   - natural harmonic.

 e|--<5>---------------<12>---<5>---------------<5>------------------|
 b|-----<5>----<5>---------------<5>----<5>-<5>----------------------|
 g|--------<5>----------------------<5>------------------------------|

  Соло.

 e|---------------------------0--------------------------------------|
 b|----0-1-0--------------------3-1--0---1-------0-1-0---------------|
 g|--2----------2/4-----2----------------------2----------2/4----2---|
 d|------------------------------------------------------------------|
 a|------------------------------------------------------------------|
 E|------------------------------------------------------------------|


 e|------------------------------------------------------------------|
 b|------0-----0-1---------------------------------------------------|
 g|--0-2-----2-------------------------------------------------------|
 d|------------------------------------------------------------------|
 a|------------------------------------------------------------------|
 E|------------------------------------------------------------------|

Генерал


Intro

 G|-------------------------------------------------------|
 D|-------------------------------0-----------------------|
 A|--------------0--3---------0-3---3--2----------------|
 E|-0--0--2--3--------3----3-------------0-------------|

Ночь


Вступление: (Снято с аккустической версии)

e|-----------------------------------------------------------------
b|-----------------------------------------------------------------
g|------------0-0-----------0-0-----------------------------------
d|------5-5-----------4-4------------------0-0-------------0-0----
a|-3-3-----3-----2-2-----2-----------5-5-------------5-5-----------
e|-------------------------------3-3------3------3-3-----3---------

Игра


RIFF A

    Am             Em                  Am             Em

1 |--------------|-------------|-----|--------------|-------------|-----|-
2 |-1------1-3-1-|-0-1-0-0-1-0-|-0-0-|-1------1-3-1-|-0-1-0-0-1-0-|-0-0-|-
3 |---2----------|-------------|-----|---2----------|-------------|-----|-
4 |-----2--------|-------------|-----|-----2--------|-------------|-----|-
5 |-0------0-0-0-|-2-2-2-2-2-2-|-0-0-|-0------0-0-0-|-2-2-2-2-2-2-|-0-0-|-
6 |--------------|-------------|-----|--------------|-------------|-----|-

    C                                  Am            Em

1 |--------0-1-0---|---0-------0-----|-------------|-------------|-----|--
2 |-1------------0-|-3---3---3---3---|-1-----1-3-1-|-0-1-0-1-0-1-|-0-0-|--
3 |---0------------|-------0-------0-|---2---------|-------------|-----|--
4 |-----2----------|-----------------|-----2-------|-------------|-----|--
5 |-3--------------|-2-------2-------|-0-----0-0-0-|-2-2-2-2-2-2-|-0-0-|--
6 |----------------|-----------------|-------------|-------------|-----|--


Рядом со мной


Вступление:

|--7--------------------------||-------------------------------------------||
|--7--------------------------||-------------------------------------------||
|--7--3--3-3--3-2--3-3-3--2---||--3--3-3--3-2--3-3-3---2-3---2-2-2--2-3-5--||
|--9--3--3-3--3-2--3-3-3------||---------------------------3---------------||
|-----------------------------||-------------------------------------------||
|-----------------------------||-------------------------------------------||

Соло в куплете:

e|--------------------------------8----------|-------------------------------
b|----------------------------9-8---8--6-8-|-------------------------------
g|-------------------------------------------|-------------------------------


Группа крови


Вступление(бас):

 F#m F#m - F#m F#m6 C#m C#m7-5 - -
A---------------------------------- --4-4----4-6-6----6-8-8----8-9-9--
E-2-2----0-2-2----5-2-2----0-2-5-4- 2---------------------------------

 F#m7 F#m
F#m F#m7 F#m6 C#m C#m7-5

-2---2----2----4---4-----
-2---5----4----5---7-----
-2---2----2----6---4-----
-4---4----4----6---6-----
-4---4----4----4---4-----
-2---2----2----x---x-----

    Соло:

F#m C#m F#m C#m F#m C#m F#m C#m
|------------------------9------9---|------------------------9-------9----|
|-----------------7-------10------9-|-----------------7--------10------9--|
|-----------4-6-----6---------------|-----------4-6-----6-----------------|
|-4---4-6-7-------------------------|-4---4-6-7---------------------------|
|------------------------------------|-------------------------------------|
|------------------------------------|-------------------------------------|

2 гитары:

F#m C#m F#m C#m F#m C#m F#m C#m
|-----------------------14-9---14-7-|------------------------14-9----14-7----|
|-----------------7-----14-10--14-9-|------------------7-----14-10---14-9----|
|-----------4-6---6-6---------------|------------4-6---6-6-------------------|
|-4---4-6-7-6-7-----7---------------|--4---4-6-7-6-7-----7-------------------|
|-5---5-8-9-------------------------|--5---5-8-9-----------------------------|
|------------------------------------|----------------------------------------|

В наших глазах


Introduction

|--0--0----------------------------2--2--------------------------------------|
|--0--0-------------1--0-----------1--1-----------7--5-----------------------|
|--2--0-------------3--2-----------2--2-----------5--3-----------------------|
|-------------------2--1-----------1--1-----------7--5------0----------------|
|-/Solo Guitar/-----3--2--------------------------5--3---------3---3-2-------|
|----------------------------------------------------------------------------|
|
G|/Second Guitar or bass(which is better)/-----------------------------------|
D|------------------------------------------------0---------0----------------|
A|---------------0--3--2-----------0--0-----2--3-----3---------3---3-2-------|
E|--0--0------3----------------------------------------------------------3-2-|

Спокойная ночь


Вступление:

e|-----------------------------------------------------------
h|-----------------------------------------------------------
g|-----------------------------------------------------------
d|------------------5--5----------------0-0-0-0------------
a|-0-0-0-3-3-3-3--3---3-3-3-3-2-2-2----------5-5-3-2-3
e|-----------------------------------------------------------

Невесёлая песня


e||--------------------------------------------------|
H||-----------------------------------0-------------|
G||-2-2-----2-2-----2-2-----2-2-1--2---------1--|
D||-----4-------4-------4----------------2-4------|
A||-------------------------------------------------|
E||--------------------------------------------------|

e|----------------------------0----------------------||
H|-------------------------------0------------------||
G|-2-2-----2-2-----2-2----1-2-------1------------ ||
D|-----4-------4-------2---------------2-4---------||
A|---------------------------------------------------||
E|---------------------------------------------------||

Соло в куплете:

e|----------------------------------|-------------------------------------|
b|----------------------------------|--0----------------------------------|
g|--2----------2---2------1--------|-------------4---4------2------------|
d|-----------2---2---2-------2-----|-----------4---4---4-------4---------|
a|------------------------------2---|------------------------------4------|
e|----------------------------------|-------------------------------------|

Пачка сигарет


Вступление:

e|------------7--5--------3-----------5-----------7--5---------|
b|------------------5--------5-----------7--------------5------|
g|-----4--5------------5--------5-7---------5--4-----------5--|
d|---------------------------------------------------------------|
a|---------------------------------------------------------------|
e|---------------------------------------------------------------|

e|--3-----------5--------------------------------------------------|
b|-----5-----------7-----------------------------------------------|
g|--------5--7--------5--4----------------------------------------|
d|-----------------------------------------------------------------|
a|-----------------------------------------------------------------|
e|-----------------------------------------------------------------|

Вступление+

e|--10-10-10--10-8-7-8-10--10-8-7-8-10--10-8-7-8-10//12-12-12------|
b|---------------------------------------------------------------------------|

e|--12-10-8-10-12--12-10-8-10-12---------------------------------------|
b|---------------------------------------------------------------------------|

...Я ВЫКЛЮЧАЮ ТЕЛЕВИЗОР...

...Выключаю телевизор...

Вступление

Am D
|-------------------------------------2--2--2--2--2--2--2-2-5-3-2----|
|--5--8--8--8--8--8--8--8-7-5------3---------------------------------|
|-----------------------------4------------------------------------------|
|------------------------------------------------------------------------|
|------------------------------------------------------------------------|
|------------------------------------------------------------------------|

Hm C
|-----2--2--2--2--2--2--2-2-5-3-2------------------------------------|
|--3--------------------------------------------------------------------|
|---------------------------------------5--5--5--5--5--5--5-8-7------|
|------------------------------------5--------------------------4-------|
|----------------------------------------------------------------------
|-----------------------------------------------------------------------|

2-ой куплет:

Em Am
|-------------------------------|-----------------------------|
|-------------------------------|-----------------------------|
|-------------------------------|--2-4-5-4-2-4-5-4-2-4-5-4|
|--2-4-5-4-2-4-5-4-2-4-5-4--|-----------------------------|
|-------------------------------|-----------------------------|
|-------------------------------|-----------------------------|

3-ий куплет:

Em Am
|----------------------3-2-0----|-----------------------8-7-5-|
|--------------------------------|----------------5------------|
|----------------4---------------|--2------5-------------------|
|--2------5---------------------|-----------------------------|
|--------------------------------|-----------------------------|
|--------------------------------|-----------------------------|

Застоялся мой поезд


Перед вступлением:

D|--------------------3--2-----3-2-3--------|
A|--0-----0-----3-----------5------------3--|
E|-----0-----3-----3------------------3-----|

Вступление+Соло в куплете:

|--------------------------------|-----------------0--------------|
|-----------------1-----0--------|-----1-----1-----------3-----1--|
|----2-----2------------------2--|--0-----0-----0-----0-----0-----|
|-2-----2-----2-----2-----2------|--------------------------------|
|--------------------------------|--------------------------------|
|--------------------------------|--------------------------------|

|-----------------5-----3------------8------8~~~~~------------|
|-----6-----6---------------------8------8~~~~~~~~-----------|
|--5-----5-----5-----5-----5------------------------------------|
|-----------------------------------------------------------------|
|-----------------------------------------------------------------|
|-----------------------------------------------------------------|

Кукушка


Соло:

e||---------0----0-----0--3------------------------0----0-----0--3--|
b||-------1---1------3-------3--1-0-1-0----------1---1------3-------|
g||---2-----------------------------------2-0-2----------------------|
d||------------------------------------------------------------------|
a||-----------------------------------------------------------------|
e||-----------------------------------------------------------------|

e|---------------3------------------------------------------------|
b|---3--1-0--1-3------------------------------------------------|
g|----------------------------------------------------------------|
d|----------------------------------------------------------------|
a|----------------------------------------------------------------|
E|----------------------------------------------------------------|

Под припев:

e|----------2-0-----------0-------------2-0-----------2-0----------|
b|------0-------0-----------3-------1-------1-----1-------1--------|
g|--0-----0-----------2-------2--2----2--------2----2--------------|
d|-----------------2----2------------------------------------------|
a|-----------------------------------------------------------------|
e|-----------------------------------------------------------------|

Когда твоя девушка больна


1-3---2-3---2-3---2-3-2---0--------------------------------------------------
2-3---3-3---3-3---3-3-3---1--------------------------------------------------
3-0---2-0---2-0---2-0-2---0--------------------------------------------------
4-0---0-0---0-0---0-0-0---2------5-4-2-0-------------------2-0-------------2-
5-------------------------3--3-3---------3-2---0^2-----3-3-----3-2-0-2-0^2---
6-3-----3-----3-----3------------------------------3-------------------------

1------------------------------0-----0---------2-----2-----3-2---3----------
2----------------------------1-----1-----1---3-----3-----3-3-3---3----------
3--------------------------0-----0-----0---2-----2-----2---0-2---0-ETC.-----
4-----5-4-2-0----------------------------------------------0-0---0----------
5-3-3---------3-2---0^2-----------------------------------------------------
6-----------------------3----------------------------------3-----3----------

Начинается новый день


1---------------------------------------------------------------------------
2---------------------------------------------------------------------------
3---------------------------------------------------------------------------
4-0-2-4-5-4--0--4-2-----0-2-4--2--0----0-2-4-5-4--0--4-2--2-0---0-----------
5---------------------4-------------2-------------------------4-------------
6---------------------------------------------------------------------------

Перемен


Вступление:

e|-------------------------------------------------------------------------
b|-------------------------------------------------------------------------
g|--------------------------------------------------------------------------
d|--------------------------------------------------------------------------
a|-5--------------5-5------------10-10-10-10-10-10-10-9-9-9-9-9-9-9-
e|-3-5-6-5-6-5--3-3-5-6-5-6-5--8--8--8--8--8---8--8--8-8-8-8-8-8-8--

e|---------------------------------------------------------------------------
b|---------------------------------------------------------------------------
g|---------------------------------------------------------------------------
d|---------------------------------------------------------------------------
a|-5--------------5-5------------10-10------------------10-10-------------
e|-3-5-6-5-6-5--3-3-5-6-5-6-5-8--8--10-11-10-11-10-8--8-10-11-5-6-




Яндекс.Каталог

© 2002–2017 gitarka.com