Мир номер ноль

Intro, проигрыш, припев:

----------------------------------------------------------------------------
----------------------------------------------------------------------------
-----6--------9--------7--------7----------6---------9---------7--------7---
- ---7---7----9---9----7---7----7---7------7---7-----9---9-----7---7----7---7-
-0--------7--------5--------5----------0---------7---------5--------5-------
----------------------------------------------------------------------------

Куплет

----------------------------------------------------------------------------
----------------------------------------------------------------------------
-----6--------9--------7--------7----------6---------9---------7--------7---
- ---7---7----9---9----7---7----7---7------7---7-----9---9-----7---7----7---7-
-0--------7--------5--------5----------0---------7---------5--------5-------
----------------------------------------------------------------------------

----------------------------------------------------------------------------
----------------------------------------------------------------------------
-----6--------9--------7--------7----------6---------9---------7--------7---
- ---7---7----9---9----7---7----7---7------7---7-----9---9-----7---7----7---7-
-0--------7--------5--------5----------0---------7---------5--------5-------
----------------------------------------------------------------------------

----------------------------------------------------------------------------
----------------------------------------------------------------------------
-----6--------4----------------------------6---------5---------7--------7---
- ---7---7----4---4------5--------5--------7---7-----5---5-----7---7----7---7-
-0--------2----------5---5----5---5----0---------3---------5--------5-------
-------------------3--------3-----------------------------------------------

----------------------------------------------------------------------------
----------------------------------------------------------------------------
-----6--------4----------------------------6---------5---------7--------7---
- ---7---7----4---4------5--------5--------7---7-----5---5-----7---7----7---7-
-0--------2----------5---5----5---5----0---------3---------5--------5-------
-------------------3--------3-----------------------------------------------

Донести синь
Растопить боль
Выпить Аминь
Доиграть роль
До утра, до утра-а-а
До утра - плыть
До утра, до утра-а-а
Быть или не быть

Проигрыш + насвистывание ;)

Пролететь свет
Довязать сон
Hк сказать нет
Тому, что дал Он
До утра, до утра-а-а
До утра - плыть
До утра, до утра-а-а
Быть или не быть

Мир номер ноль          x10




Яндекс.Каталог

© 2002–2017 gitarka.com