Метель

Проигрыш:
    Em                 C                        G                     D
E---------0-----------------------------------------------2-3-2----|
B-------0-----------0----------------------------------3--------2--|
G-----0-------0--0-------0----0------0-------------2--------------|
D---2------------------5----4------0-------------0-----------------|
A-----------2---3--------------------------0-2-3-------------------|
E-0-------------------------------3------3--------------------------|

    Em                 C                        G                       D
E---------3--------------------------------0-----0---------2-3-2-----|
B-------3-----------3-------------------0------0---------3--------2--|
G-----0-------0--0-------0----0------0------0--------2--------------|
D---2------------------5----4----4/9--------------0------------------|
A-----------2---3-----------------------------------------------------|
E-0--------------------------------------------------------------------|

Куплет1:

             Ко-ро -  нова-на  лу -  ной
E---------3----------------------------------------------2-3-2-----|
B-------3-----------3---------3-----------------------3--------2--|
G-----0-------0--0---------0--------0--------------2--------------|
D---2------------------0/2---------0------------0------------------|
A-----------2---3-------------------------0-2-3--------------------|
E-0------------------------------3------3---------------------------|

             Как  на-чало          высока.................. а-а-а..........
E---------3-------------------------------3----------2-3-2-----|
B-------3------------3---------3-------3---3------3--------2--|
G-----0--------0--0---------0--------0------0---2-------------|
D---2-------------------0/2---------0--------- 0----------------|
A------------2---3----------------------------------------------|
E-0-------------------------------3------------------------------|

             Как победа           не со мной,
E---------3----------------------------------------------2-3-2-----|
B-------3-----------3---------3-----------------------3--------2--|
G-----0-------0--0---------0--------0--------------2--------------|
D---2------------------0/2---------0------------0------------------|
A-----------2---3-------------------------0-2-3--------------------|
E-0------------------------------3------3---------------------------|

             Как на - дежда       не  легка.
E---------3-------------------------------3----------2-3-2-----|
B-------3------------3---------3-------3---3------3--------2--|
G-----0--------0--0---------0--------0------0---2-------------|
D---2-------------------0/2---------0--------- 0----------------|
A------------2---3----------------------------------------------|
E-0-------------------------------3------------------------------|


Em    C                     G D
За окном стеной метель.
Жизнь по горло занесло,
Сорвало финал с петель,
Да поело все тепло.

Припев:

       Играй,   как можешь,   сыграй,   закрой глаза и вернись.          
E---------3----------------------------------------------2-3-2-----|
B-------3-----------3---------3-----------------------3--------2--|
G-----0-------0--0---------0--------0-----------0--2-------------|
D---2------------------0/2---------0----------0---0---------------|
A-----------2---3-------------------------0/2----------------------|
E-0------------------------------3----------------------------------|

       Не  пропади,  но  растай,  да  колее  поклонись
E---------3-------------------------------3----------2-3-2-----|
B-------3------------3---------3-------3---3------3--------2--|
G-----0--------0--0---------0--------0------0---2-------------|
D---2-------------------0/2---------0--------- 0----------------|
A------------2---3----------------------------------------------|
E-0-------------------------------3------------------------------|

       Мое окно отогрей, пусти по полю весной
E---------3----------------------------------------------2-3-2-----|
B-------3-----------3---------3-----------------------3--------2---|
G-----0-------0--0---------0--------0----------0--2---------------|
D---2------------------0/2---------0----------0--0----------------|
A-----------2---3-------------------------0/2----------------------|
E-0------------------------------3----------------------------------|

        Не  доживи,  но  созрей,  и  будешь  вечно  со  мной,
E---------3-------------------------------3----------2-3-2-----|
B-------3------------3---------3-------3---3------3--------2--|
G-----0--------0--0---------0--------0------0---2-------------|
D---2-------------------0/2---------0--------- 0----------------|
A------------2---3----------------------------------------------|
E-0-------------------------------3------------------------------|

       И  будешь  вечно  со  мной,  и  будешь  вечно               со
E---------3----------------------------------------------2-3-2-----|
B-------3-----------3---------3-----------------------3--------2---|
G-----0-------0--0---------0--------0----------0--2---------------|
D---2------------------0/2---------0----------0--0----------------|
A-----------2---3-------------------------0/2----------------------|
E-0------------------------------3----------------------------------|

Em C G D
Мно-о-о-о-й  е-е-и-е-е.
Со мно-о-о-й. 

Проигрыш:

Куплет2: (Играется как первый).

Ищут землю фонаpи
К небу тянется свеча-а-а-а
Hа снегу следы заpи
Кpылья павшего луча

Что же,вьюга, налива-а-а-ай
Выпьем вpемя на тощак
Я спою ты в такт пpола-а-а-ай
О затеpянных веща-а-а-а-ах.

Припев:

Проигрыш:

(Перебором):

Остоpожно не спеша
С белым ветpом на гpуди
Где в умеpший блек ладьи
Ждет озябшая душа.




Яндекс.Каталог

© 2002–2017 gitarka.com